SF or Other Guitar TABs?

2

Comments

  • RichardRichard Joined: Posts: 592
    Update for a few chars. Anybody else made progress?
    "Amusementive Crime" Skullomania
    E:---------------- -?-4b-9b-16b-9b- ---------------------4---------
    b:---------------- ---------------- ---------------4-5-7---7-5-4---
    g:--5--4-------5-- ---------------- --5-4-5--4-5-7---------------4-
    d:--5--4-------5-- ---------------- -------------------------------
    a:--3--2-0-5-2-3-- ---------------- -------------------------------
    e:---------------- ---------------- -------------------------------
    
    
    "Cold Pipe" Zangief
    E:--------------12- -------------4-----------4-6-- --------
    b:----------------- --7-6-2--7-6----7-6-2--7------ --------
    g:--3-------------- ------------------------------ -----3--
    d:--------2-2-2---- ------------------------------ --5--3--
    a:----2-2-2-2-2---- ------------------------------ --5--1--
    e:----0-0-0-0-0---- ------------------------------ --3-----
    
    
    "Strange Sunset" Guile
    b:------5---- 5-----6-----6-- ------------------
    g:--6-----6-----8-----8------ ------------------
    d:----7-----7-----8-----8---- ------------------
    a:--------------------------- --6-6--4--6--3-4--
    e:--------------------------- --4-4--2--4--1-2--
    
  • RichardRichard Joined: Posts: 592
    I've been working away at some more, and here is a revised version:
    Precious ? Sakura
    g:------------------------- --------------0-1- -0---------------------
    d:--0-2-3--3-(6)-4-3--1-1-- -0-1-2-??-1-2----- -4-4-6-4-3-----------1-
    a:------------------------- ------------------ -----------3-4-4-3-4---
    e:------------------------- ------------------ -----------------------
    
    I did a few more, and the rest will appear on mxtabs.net shortly.
    Originally posted by Fin.K.M
    Anyone got any Guilty Gear tabs? Specifically, tabs for "Writhe In Pain" (Millia's stage).
    How about this:
    http://www.angelfire.com/electronic/myPlace/ggstuff/tabs.html
  • RichardRichard Joined: Posts: 592
    Well, Hokuto/Kairi has been expanded, and the full game now appears on olga.net

    Moving on to SF Alpha, I recently listened to about 4 rounds of each of these two, and was able to come up with a skeleton.
    Rolento
    b:--7--7-6-- ---------------- --7-5-3-5---
    g:--8--8-6-- ----------7----- ------------
    d:--9--9-8-- --9-9-9-9-7--9-- ------------
    a:--9--9-8-- --9-9-9-9-5--9-- ------------
    e:--7--7-6-- --7-7-7-7----7-- ------------
    
    Guy
    E:-------------- -7---- -5-7-8-7-5-3--?-?-12--
    b:--4--5--2--4-- --7--- ----------------------
    g:--4--5--2--4-- ---8-- ----------------------
    d:--4--5--2--4-- ----9- ----------------------
    a:--2--3--0--2-- ------ ----------------------
    
    And finally, blackbird and Wesley seem to agree on the following for Adon
    E:--------------------------------- -2b-0b- -0-------------------2-
    b:--------------------------------- ------- ---4------0--------0---
    g:---------------2----------------- ------- -----1--1---3--1-3-----
    d:----------4----0----------------- ------- -----------------------
    a:----------2-------4-2---2~------- ------- -----------------------
    e:--4-4-4-4----4--------4-----2-3-- ------- -----------------------
    
    There's gotta be somebody else out there who can help?
  • RichardRichard Joined: Posts: 592
    Anybody wanna help out here? I'm having a hard time getting Karin and A3-Ryu, so does anybody wanna try it?
    A3-Rose
    E:------3--5-3-2-3---------------- --------------------- --------2-2-0--
    b:----3------------5-3-2-3-------- --------------------- ----1-3--------
    g:--2----------------------5-4-2-- --------------------- --2------------
    d:-------------------------------- ----------0---2-0---- ---------------
    a:--three------------------------- --0-0-3-0---0-----3-- ---------------
    e:--times------------------------- --------------------- ---------------
    
  • RichardRichard Joined: Posts: 592
    Am I doing this by myself? Another couple, still awaiting corrections for the others, as well as other chars.
    A3-Gen
    E:--3-------------------------
    b:--3-------------------------
    g:--0---2----------3-2--------
    d:--------3-5--3-5-----1-3----
    a:----------------------------
    e:----------------------------
    
    A3-Birdie
    E:---------------------------
    b:---------------------------
    g:--5-6-5--3-5-5-6-8-6-------
    d:--5-6-5--3-5-5-6-8-6-------
    a:--3-4-3--1-3-3-4-6-4-------
    e:---------------------------
    
    A3-Cammy
    E:--------------------------
    b:---------------5-4-2-0----
    g:--------------------------
    d:--------------------------
    a:--------------------------
    e:--7-9-5-7-3-5-------------
    
  • RichardRichard Joined: Posts: 592
    Karin
    E:----------------- --10b-10b- ------------- ---------------
    b:----------------- ---------- ----3~-4~-6~- ---------------
    g:----------------- ---------- -5~---------- ---------------
    d:----------------- ---------- ------------- ---------------
    a:-3-3-1-1-5-5-5-5- ---------- ------------- -3-3-5-5-6-6-5-
    
    SF2 Bonus Round (90 BPM)
    b:---------------------------------------------------
    g:----4-4---------2-2---------2-2---------4-4--------
    d:----4-4---------2-2---------2-2---------4-4--------
    a:----2-2---------0-0---------0-0---------2-2--------
    e:--0-----6-5-4-0-----6-5-4-0-----6-5-6-0-----4-5-6--
    
    CE Generic Boss Endings
    b:--------- -------------------------------------------------
    g:--------- -------------------------------------------------
    d:--------- --------0-000-1-111-3-333---------3--------------
    a:--3---3-- --3-333---------------------3-5-6---6--??--5-6-3-
    e:----3---- -------------------------------------------------
    
    Anybody wanna tab from the videos of Dan/Charlie linked on the previous page?
  • DigitalGypsyDigitalGypsy MN 3S Scrub Joined: Posts: 360
    Hey guys,

    I just wanted to post up to keep this thread going. I play Guitar AND SF seriously. I've been playing for over 10 years. I mainly play 80's shred type stuff, some blues, and classical. I'll give these tabs a spin and tell you what I think. I'm also interested in Guilty Gear tabs too. They have the best guitarwork.

    -M
    Now he's just being a buttface.
  • RichardRichard Joined: Posts: 592
    Got a few more related ones, with a little help from a midi...
    Sodom's from Final Fight
    E:------------------------------ --------------------------------------------
    b:----3-2-3-2------------3-5-5~- -5-5-3-1-3-1-0----------3-3-1-0-1-0---------
    g:-4~---------4~--2-4-4~-------- ---------------2-0-0-0--------------2-0-----
    d:------------------------------ ----------------------------------------3-3-
    a:------------------------------ --------------------------------------------
    e:------------------------------ --------------------------------------------
    
    Slum (level 1.1)
    E:----------------------- ----------------- -----------0--1-1-3-0-0------------0-
    b:----------------------- -------3~-------- -3-3-0-3-0---------------3-3-0-3-0---
    g:----------------------- -4-2-4----2-0---- -------------------------------------
    d:-2---0-2---0-2-----0--- --------------2~- -------------------------------------
    a:---2-----2-----0-2---2- ----------------- -------------------------------------
    e:----------------------- ----------repeat- -------------------------------------
    
    I've not heard the SFA1 remixes for a while...
  • RichardRichard Joined: Posts: 592
    Again from a midi, this time from SFA1 and A2:
    SFA1-Charlie
    E:-------------------------------------------------- --------------------------3-----
    b:-------------------------------------------------- --------------------0-----3-3-0-
    g:---------------------------------------------0---- --------------------0-0-----4-0-
    d:-------0-----------------3-------0---------2---3-- -----0-0--------------0-0-------
    a:-0-2-3----3-2-0--0-------5-0-2-3---3-2-0-0-------- -2-3-----3-2-0-0--------2-------
    e:-------------------0-3-1-5------------------------ -----------------3--------------
    
    SFA1-Akuma
    E:-------- ----------------------------------------------------------------------
    b:-------- ----------------------------------------------------------------------
    g:-------- --------------------------------------------------------------4-5-5-5-
    d:-------- -5-5-5-5-5-5-5-----2-2-2-2-2-2-2--2-0h2p0h2p0-------------3-5---------
    a:-3--2-3- ---------------5-5----------------------------3-3-2-3-3-3-------------
    e:-------- ----------------------------------------------------------------------
    
    I seem to have lost the vid that guy hosted a while back, but can anybody verify if he plays it in the same octave?
  • RichardRichard Joined: Posts: 592
    The trumpet bits.
    Strider Hiryu ("Raid"/"Defence Line" by Junko Tamiya?)
    E:----------------------------0-0-1-3-1-0---0- -0-1-0-------------------------0----
    b:-------1-0----------0-1-1-3-------------3--- -------3-0-1-0-----0-------1-3---3-0
    g:-2-0-------0-2--2-2-------0-2-2-4-5-4-2---2- ---------------0-2---2-0------------
    d:-----2-3-2---0--0-0-2-3-3------------------- -3-5-5-3---2-------------2-----5----
    a:-----------3-------------------------------- -----------------3---2---3----------
    e:-------------------------------------------- ------------------------------------
    
    Those are from the first level of the original 1989 game, but I think they are reused by Takehara/Kohda in Marvel Vs. Anybody wanna expand on it?
  • RichardRichard Joined: Posts: 592
    Some more.
    Cody
    E:-------------------------------------
    b:-------------------------------------
    g:-------------------------------------
    d:--4------------6-7-9-6--9-9-7-9-7----
    a:--4--7-6--7-6---------------------9--
    e:--2----------------------------------
    
    And now characters from SFEX2- a bar or two each to get started with.
    A couple of the names are missing if somebody can fill in...
    "Iron Eyes" Area (updated)
    E:------- -------------6--5--5-3-1-3---6-10-8-6--
    b:------- ---------------------------------------
    g:--5-7-- ---------------------------------------
    d:--5-7-- -4-5-4-0-2-----------------------------
    a:--3-5-- ---------------------------------------
    e:------- ---------------------------------------
    
    "Bari-Bari Red Heat" Blanka (expanded)
    E:------------ ----------------------------- ------8~--
    b:------------ ----------------------------- -6-6------
    g:------------ -5--0-2-3-5-3-2-3-2---------- ----------
    d:--------1--- --------------------5-3-5-2-- ----------
    a:----1-3---3- ----------------------------- ----------
    e:--1--------- ----------------------------- ----------
    
    "?" Kairi
    E:----------------- --------------------- ------------ -----------
    b:----------------- --------------------- ------------ -----------
    g:--5-5--------5-5- ----------3---------- -------3--5- -5-4-2-----
    d:--5-5--4-5-7-5-5- ----5--3-----6-2-3-5- ---5-3------ -------5-2-
    a:--3-3--2-3-5-3-3- -3------------------- -3---------- -----------
    e:----------------- --------------------- ------------ -----------
    
    "Indra Bridge of TasoGare" Darun Mister (expanded)
    E:---------------- ---------------------------- ---------- -2-
    b:---------------- ---------------------------- -----5-7x- ---
    g:---------------- -11-11-11-9----------------- -6-7------ ---
    d:---------------- -11-11-11-9-11--9-9-9---7-4- ---------- ---
    a:-------------1-- -9--9--9--7-11--9-9-9-4-7-4- ---------- ---
    e:--3-1-3-1-3----- ------------9---7-7-7---5-2- ---------- ---
    
    "Cute Mafia" Nanase (updated)
    E:------- --------------------------- ----------------------------------
    b:------- --------------------------- ----------------------------------
    g:--4---- ---2----------------------- ----------------------------------
    d:-----5- -5---4-5-4-5-4-5-4-1-4-2-2- ------2------2--4-2-4-2-4-6-7--2--
    a:------- --------------------------- -2-0-----2-0----------------------
    e:------- --------------------------- ----------------------------------
    
    "?" Sagat
    E:-------------------------- -----------------12-10-8--
    b:-------------------------- --------------------------
    g:-------------------------- -------------?-9----------
    d:-------------------------- ----------2---------------
    a:--------1-2--------------- ----1---------------------
    e:--3-0-3-----3-3-0-3-3-0-1- ------3-------------------
    
    "?" Shadow Geist
    E:--7-7-8-8--7-7-8-8--5-5-5-5---------------
    b:------------------------------------------
    g:------------------------------------------
    d:------------------------------------------
    a:-----------------------------------7-6----
    e:-----------------------------7-6-7-----7--
    
    "Temptation Gun" Sharon (updated)
    E:--- --------------------------- ------------------------ ------------
    b:--- --------------------------- ------------------------ ------------
    g:-8- -----------------------2-3- ------------------------ ------------
    d:-8- -------------------4-5-2-3- ------------------------ ------------
    a:-6- -7-7-5--4-5-4-7-5--4-5-0-1- -2--0-2-2-0--0---------- -4--2-4-4-2-
    e:-?- -------------------2-3----- ----------------3-5-5-3- ------------
    
    "Matador" Vega (updated)
    E:--------------------------------- ---------
    b:--------------------------------- -8-7p5p3-
    g:----------------------0-0-0-3-2-- ---------
    d:------7--7--5-7--9-7------------- ---------
    a:--------------------------------- ---------
    e:--2-3-5-------------------------- ---------
    
    "Coolman" Vulcano Rosso (expanded)
    E:-------------------------------- -------------- ----------
    b:-------------------------------- -------------- ----------
    g:--3-2----2-0------0-----0-2-0--- -7-5-5--8-7-7- -12-11-10-
    d:-------3-----2--1---3----------- -7-5-5--8-7-7- -12-11-10-
    a:-------------------------------- -5-3-3--6-5-5- -10-9--8--
    e:-------------------------------- -------------- ----------
    
  • RichardRichard Joined: Posts: 592
    Some more. This will probably be my last contribution unless anybody else responds.
    SFA3-Ryu
    E:-------------------------------------- -----------
    b:------------------------------ -3-2--- -----------
    g:-------------------------7---- -----2- -----------
    d:-----------3-4-----------7-7-- ------- -2-4-?-5-2-
    a:--2-2-0-2--3-4--2-2-0-2--5-7-- ------- -----------
    e:-----------1-2-------------5-- ------- -----------
    
    SFEX1 "God Hands" Akuma
    E:------------ -----2--4--------2-4--5-2-4--
    b:--4--------- -2-4------2-4--4-------------
    g:------------ -----------------------------
    d:------------ -----------------------------
    a:------------ -----------------------------
    e:----4-4-5-4- -----------------------------
    
    "Harem Beat" Ace
    E:--------0--4-2- ----------- -------------------- -11-12-12-11-----
    b:----?-?-------- ----------- -------------------- -------------12--
    g:--?------------ -------4--- -------------------- -----------------
    d:--------------- -----4---6- -------------------- -----------------
    a:--------------- -4-6------- -4--2---------6-4-2- -----------------
    e:--------------- ----------- -2-----4-2--2------- -----------------
    
  • SystemSystem Joined: Posts: 508,676 admin
    I've been playing guitar a few years now and I can't read music but I have a good ear so I've figured out some things. I submitted a guitar tab to video game jam for the Marvel vs Capcom 2 theme a while back, although I'm not sure how accurate it is anymore.

    I recently submitted a tab for T Hawk's theme to them, and I think it's pretty accurate.

    Here's the MvC2 theme-
    http://videogamejam.com/dc/mvc2naoh_title.txt
  • RichardRichard Joined: Posts: 592
    ^ Do you mean SF2 Hawk or SFA3? If it's the former, then maybe you could compare it with the version I linked earlier and let me know if anything's wrong? Also, I've not been able to submit to VGJ- Is there a new email address or something?
    SFA3 "Mach-Smasher" Honda
    E:-------------- -----------------------------
    b:-------------- -----------------------------
    g:--5----------- -----------------------------
    d:--5----------- -----------------8----13-10--
    a:--3--6-3-1-3-- ----6---8-6-10-8---10--------
    e:-------------- --8---8----------------------
    
    A3 Dee Jay
    E:----------- ----------------------
    b:----------- ----------------------
    g:----------- ----------------------
    d:----------- --0-2-2----0-2-2------
    a:--0-3---3-- --------3--------3-0--
    e:------3---- ----------------------
    
    SF2 Staff Roll
    Intro 1                    Intro 2*          Main
    -4-3-1----11-9-8-6-8-9-11- -7-5-7-8-8-7-5-7- -8-8-4-6----16-15-13-15---- -8-9-6-8-------6------
    -------4------------------ ----------------- ---------4--------------13- ---------9--8-9-9-8-4-
    -------------------------- ----------------- --------------------------- ----------------------
    -------------------------- ----------------- --------------------------- ----------------------
    -------------------------- ----------------- --------------------------- ----------------------
    -------------------------- ----------------- --------------------------- ----------------------
    Note: Intro 2 is from ST, and is a semitone lower all the way through.
    Also, the vocal line from "Ready" is a further three semitones down.
    
  • SNK GuitaristSNK Guitarist Super Turbo Fanatic Joined: Posts: 427
    I wish I didn't have to sell my guitar. Another one will be coming soon, though! Then it'll be time to rock this thread something fierce.
    CvS2: N/P Groove - Kim, Ryu, Geese, Kyo, Iori, Terry, Guile, Haohmaru
    Super Turbo: Guile, Ryu
    Fatal Fury Special: Kim, Geese, Duck King, Tung Fu Rue, Terry
  • RichardRichard Joined: Posts: 592
    Some more...
    Stepping stones for the rock pieces from Tekken 4:
    Underground Pit: G5 A5 C5 D5
    Caged Arena: E5 E5 slide>B5
    
    SFEX1 "Future Objects" (68 bpm) Cycloid Beta/Gamma
    E:----------- -4-3----6-4---- ----------- -8-6-----8-6-----
    b:----------- -----4------6-- ----------- -----9-------6-9-
    g:-----1----- --------------- -8-10-8-12- -------8---------
    d:-------1--- --------------- -8-10-8-12- -----------------
    a:---3-----1- --------------- -6-8--6-10- -----------------
    e:-1--------- --------------- ----------- -----------------
    
  • SystemSystem Joined: Posts: 508,676 admin
    Richard keepin' it real.. :P

    When I get a guitar again (in a week or two) I'll see if I can elaborate/verify/whatever-the-hell-you-want this stuff.

    I'm big on rhythm/chords and not so much leads, so maybe I can rig up some backing riffs.
  • SiLLiEMutAfuKASiLLiEMutAfuKA aka SmF Joined: Posts: 1,492
    Does anyone have SF2/Alpha1/2's Ryu Stage bass tabs?

    Really want it....thanks if someone can give me it.
    Zenpou Tenshin~!
  • RichardRichard Joined: Posts: 592
    Does anyone have SF2/Alpha1/2's Ryu Stage bass tabs?
    You mean the same tune, right? I suppose you could play the opening notes of the guitar part from the SF2 stage on the bass... there are some versions in the archives I link before.

    Anyway, here are some more from SFA3:
    "Final Round", also used in Survival and Dramatic Battle modes
    E:--------------- -5-6-8-10-13-
    b:--------------- -------------
    g:-----7-5-7-5-5- -8-----------
    d:--7--7-5-7-5-5- -8-----------
    a:--7--5-3-5-3-3- -6-----------
    e:--5------------ -------------
    
    Boss Bison
    E:------------- -----------
    b:------------- -3~-4~-2~--
    g:-------0---3- -----------
    d:--5--0---0--- -----------
    a:--5---------- -----------
    e:--3---------- -----------
    
    What we really need is some more Sagat stuff. I don't have the game right now, but maybe somebody would work out his A2 field (Australia, I think it is)
  • SystemSystem Joined: Posts: 508,676 admin
    brigdet's theme from guilty gearxx, anyone? couldnt find on any of sites posted up
  • RichardRichard Joined: Posts: 592
    Just a reminder that for the time being, the most recent versions of the 3 main SF series can be found at tabalorium.com
  • SNK GuitaristSNK Guitarist Super Turbo Fanatic Joined: Posts: 427
    I just finished recording the Final Fantasy 3 (6) dramatic boss theme you can check out here:

    Download Here (2.2mb)

    If anybody is interested in a tab I can whip one up. It's not that hard to play, though.
    CvS2: N/P Groove - Kim, Ryu, Geese, Kyo, Iori, Terry, Guile, Haohmaru
    Super Turbo: Guile, Ryu
    Fatal Fury Special: Kim, Geese, Duck King, Tung Fu Rue, Terry
  • RichardRichard Joined: Posts: 592
    Keep the recordings coming!

    Also, with the recent oldie compilations, has anybody thought about doing GunSmoke or Bionic Commando?
  • SystemSystem Joined: Posts: 508,676 admin
    Does anyone use a electric guitar?

    Just have some questions about them and well guitars in general. Quite new to them.

    1. How do you replace broken strings in a guitar?

    2. Was thinking of buying a electric guitar maybe sometime in the future. Possibly a fender strat http://www.musiciansbuy.com/FENDER_STD_STRAT_RW__kit2.html . Was wondering why are some more expensive than others. Does that depend on what type of material is used on the guitar? Do they all sound the same? Can't think of any other questions right now other than those at the moment.
  • gutabogutabo Joined: Posts: 288
    Anyone mind tabbing Geese's stage from KOF 1996? I LOVE that version and I think the guitar is God Tier there.
  • SystemSystem Joined: Posts: 508,676 admin
    Bump. Does anyone have a tab for simple life in guilty gear?
  • RichardRichard Joined: Posts: 592
    I submitted a guitar tab to video game jam

    How exactly do you do that? A few months ago, I tried to use the email address on the site and it bounced back... What's the procedure, and how long does it usually take?
  • rukawa_kaederukawa_kaede ({「決最終戦奥義」}) Joined: Posts: 3,444
    I didn't know there was this kind of thread here in SRK

    anyway, I'm looking for KING OF FIGHTERS tabs if anyone of you know any sites, please tell me

    I must play this song

    ESAKA FOREVER!!!!!!!!!!!!!!!!!
  • goodm0urninggoodm0urning AWKWARD... BITCH Joined: Posts: 14,235
    There is a guitar thread in the GD forum that may get you better results than posting in this mummified thread.
  • RichardRichard Joined: Posts: 592
    ^ nah, this thread is useful for keeping everything together.

    Anyway, it seems that it the last few years since we posted here (ie since the rise in popularity of YouTube), there have been a lot of people posating stuff.

    Check out nerdson, damienwarlock, bboynoe and speedsamurai. But there are loads of others. There are also plenty of closeups so you can watch hands.
  • GamegeezerGamegeezer MANLY AS HELL Joined: Posts: 2,668
    Anyone tabbing or know about the Hokuto No Ken opening theme performed by Animetal. The title was Ai Wo Torimodose. I've yet to see a full tab out there. That and the Alph Lyla Dee Jay theme "On His Beat".
    In the Sacramento area?

    Local Matchmakinghttp://www.facebook.com/groups/207385072653458/
    Monthly (Every first Friday of the month)http://www.facebook.com/tapteatourneys
    Bi-weekly (check dates for break times)https://www.facebook.com/CapitolFightDistrict

    Hit me up for more info
    @GamegeezerSRK
  • EveryFlowerFlowEveryFlowerFlow You Want Pain? Aegis Reflector Joined: Posts: 3,781
    ^ nah, this thread is useful for keeping everything together.

    Anyway, it seems that it the last few years since we posted here (ie since the rise in popularity of YouTube), there have been a lot of people posating stuff.

    Check out nerdson, damienwarlock, bboynoe and speedsamurai. But there are loads of others. There are also plenty of closeups so you can watch hands.


    I'm sure GM was eagerly waiting those 2 years+ just to hear from you.
    I make Jazz-Hop/Soul-Hop: http://releases.prosodij.co.uk
  • RichardRichard Joined: Posts: 592
    First SFIII stuff

    ^ Don't worry yourself about it.

    Anyway, it turns out there is a lot of SF Piano stuff recorded: Rastapulse, Runthar, Coak5 and VolcanoDestroyer. And a special mention must go to SongeLeReveur for the latin stuff!
    3rd Strike Yun/Yang Lee "Crowded Street" (by Hideki Okugawa):
    E-12x-------- ---7-5-7--5-7-7p5h7-9-7- ----12-10-12-7~-- -5----5-8-7- -----------
    b------------ -5---------------------- -10------------8- ---3-------- -----------
    g------------ ------------------------ ----------------- ------------ -----------
    d------------ ------------------------ ----------------- ------------ -7-7-5-7-7-
    a------------ ------------------------ ----------------- ------------ -7-7-5-7-7-
    e----5-6-7-6- ------------------------ ----------------- ------------ -5-5-3-5-5-
    
    Alex & Ken M "Jazzy NYC '99"
    E:------- ---------------------------------------------- ----------- ---------
    b:------- -13-12-10----------13-12-10-12-------10-12-13- ----------- -10------
    g:--12-9- ----------12-9-11--------------12-12---------- ---7-9-7-9- ----12-9-
    d:------- ---------------------------------------------- -9--------- ---------
    a:------- ---------------------------------------------- ----------- ---------
    e:------- ---------------------------------------------- ----------- ---------
    
    Extended version of SF2 stuff
    Zangief
    b:----------- -------------------------------------
    g:----------- ----5--------------------------------
    d:--0-2-3-5-- --7---7-5-7-5------------------------
    a:----------- ---------------7-0-3-0-?-0---0-?------
    e:----------- -----------------------3---3---?--0-3-
    
    Balrog USA
    E:-------------- -----------3-1-0----- ---------------------------
    b:-------------- -----1-3---------1-3- ---------------------------
    g:-------------- ---2----------------- -----------2-0---0---------
    d:-------------- -3------------------- -0-2-3-0-3-----3---3-2-0---
    a:--0-0-0-0-0-0- --------------------- -------------------------3-
    e:-------------- --------------------- ---------------------------
    
    Sagat / Thailand
    E:--------------- --------------------------------- ----------------------------
    b:--------------- --------------------------------- ----------------------------
    g:-0-0-0-0-0-3--- -2-2---0------------------------- -0x-2x-3x-5x-6b--3-3-2-3-6--
    d:-------------3- -----3---0-3---0--2-0------------ --------------------------0-
    a:--------------- -------------3--------1-3-------- ----------------------------
    e:--------------- --------------------------1--1-3- ----------------------------
    
    M. Bison
    E:--------- -------------------------------------- -----------
    b:--------- -------------------------------------- -----------
    g:--------- ----------0-------------0-3-2-0-2----- -4-5-5-4-5-
    d:--2~-1~-- --0-2-0-2---4-0-2---0-2-----------0-2- -----------
    a:--------- -------------------------------------- -----------
    e:--------- -------------------------------------- -----------
    
    Note to self, re: missing names above:
    Kairi: "Passage Of Lotus"
    Sagat: "Before Moon"
    Shadow Geist: "The Battle Of The Flame"
  • RichardRichard Joined: Posts: 592
    So, it's been almost a quarter since the home version was released, so I thought I'd put up the SF4 stuff I'd been working on.
    SFIV Abel Theme by Hideyuki Fukasawa
    e:--2x-2x2x---- -------7-5--11-10-8-6- --16-14-----16-19-18-
    b:--2x-2x2x---- -5-7-7---------------- --------14-----------
    g:--2x-2x2x---- ---------------------- ---------------------
    
    Crimson Viper Theme
    E:---------------- ------------- ------9-8--------9-13-12-
    b:---------------- ------------- --6-9-----9--6-9---------
    g:---------------- ------------- -------------------------
    d:----7-6----4-3-- --3-3-3-5-3-- -------------------------
    a:----7-6----4-3-- ------------- -------------------------
    e:--0-5-4--0-2-1-- ------------- -------------------------
    
    SFIV Old Temple, Japan
    e:------------10--12-10-------10-----
    b:------6-7-9-----------10-13----10--
    g:--6-8------------------------------
    
    Crowded Downtown, China
    e:--------------- --8-8h10p8----8-11-8-- -----x-x-
    b:----4---6-4---- -----------10--------- -x-x-----
    g:--5---5-----4-- ---------------------- ---------
    
    Snowy Railyard, Russia
    E:-------4-7-16-- -------------------------------------- ---------66
    b:--------------- -------------------------------------- ---------
    g:--------------- ----8-8-8--8h9p8-6-4-8--8-9-8-6-4----- ---------
    d:--6x-9x-------- --6-------------------------------8-6- -4-6-8-4-
    a:--6x-9x-------- -------------------------------------- ---------
    e:--4x-7x-------- -------------------------------------- ---------
    
    Cruise Ship Stern
    E:------------------ -4-4-4-5-5-5---4------2-
    b:------------------ -------------4---?--2---
    g:--4-5-5-555--1-3-- ------------------------
    d:------------------ ------------------------
    
    Beautiful Bay, Vietnam
    E:-6b8--- --8-6-8-10-11-10-8-6--11-10-6--11-- -11-10-6-14- ---6-10-13-11-10-----
    b:------- ----------------------------------- ------------ -8---------------8-7-
    g:-----5- ----------------------------------- ------------ ---------------------
    d:------- ----------------------------------- ------------ ---------------------
    
    Drive-in at Night, USA
    d:--------4------6-------
    a:-----------------------
    e:--0-0-2-2--0-0-4-2-----
    
    SFIV Inland Jungle
    E:-------8x-- ------------5-3-2-0-----------------etc-7-6-
    b:----------- ------3---3---------3-----------------------
    g:----------- ----3---5-------------5-3-5------3----------
    d:--5x-5x---- --5-------------------------5--5------------
    a:--5x-5x---- --------------------------------------------
    e:--3x-3x---- --------------------------------------------
    
    Historic Distillery, Scotland
    d:-----------3---- --7-9-11-7-- ---
    a:--6-4-6--6---4-- ------------ ---
    
    Volcanic Rim, Hawaii
    E:-----19--17-16-----16--------------- ------------- -19h?-20h?-19h?-17h?-
    b:---------------19-----19-17--------- -20-17-19-20- ---------------------
    g:--16------------------------16------ ------------- ---------------------
    d:------------------------------------ ------------- ---------------------
    a:--8---------------------------4-6-8- -4----------- -8~------------------
    
    Seth Secret Laboratory, Bermuda
    b:----- ----------------------- ---------------- -----
    g:----- -------7--------------- ---------------- -----
    d:----- ---7-6----6--8-7-5-7--- -8-7-5-5-----?7- --1x-1x-
    a:--6x- -5--------------------- ---------8-5---- --------
    e:----- ----------------------- ---------------- --------
    
    Still to do: Rufus, El Fuerte, Gouken, Small Airfield and Overpass, but most of these don't have particularly interesting melodies.
  • GamegeezerGamegeezer MANLY AS HELL Joined: Posts: 2,668
    Beautiful additions, gonna enjoy messing with Viper's theme :smokin:
    In the Sacramento area?

    Local Matchmakinghttp://www.facebook.com/groups/207385072653458/
    Monthly (Every first Friday of the month)http://www.facebook.com/tapteatourneys
    Bi-weekly (check dates for break times)https://www.facebook.com/CapitolFightDistrict

    Hit me up for more info
    @GamegeezerSRK
  • KrosKros Mak n Sak Joined: Posts: 611
    Still haven't been able to find Sakura's Alpha theme tabs for Guitar or the sheet music for piano. Anyone seen any? I've just seen youtube bedroom players play.
    3s: Makoto/Sean/Yun
    SSF4: R.I.P Makoto
  • RichardRichard Joined: Posts: 592
    It's funny, I sent that in to tabcrawler a couple of years ago, but it doesn't seem to be on here... Must have overlooked it.
    SFA2: Sakura K (I guess also used in Puzzle Fighter)
    E:------- ---------------------------------------------------------------------
    b:------- ---------------3-1-0-----------------------------------3-1-3-5-1-3-0-
    g:------- -2-4-4--2-4-2--------2--2-4-4-4--4-----2--2-4-4--2-4-5---------------
    d:-3-2-3- -----------------------------------0-3-------------------------------
    a:-5-3-5- ---------------------------------------------------------------------
    e:------- ---------------------------------------------------------------------
    
    Also, there's about a 10% chance I'll take requests from SF1, SF3 and the ones I haven't yet done from SF4.
  • apex27apex27 leveling up Joined: Posts: 348
    great thread!
    Neal (old school arcade rat)
    SSF4: Can't decide
    HDR: Deejay, Dictator
    A2: Rose, Chun
  • RichardRichard Joined: Posts: 592
    3rd Strike, and More4
    SFIV Overpass, Tokyo
    e:-------------- ----------------- ---11-10-7---9-
    b:-------------- -8-9-8---------8- -8---------8---
    g:--5x-5x-5x-8x- -------10-8-10--- ---------------
    d:--5x-5x-5x-8x- ----------------- ---------------
    
    
    SF3 Dudley "You Blow My Mind"
    b:--5-3---------5-5-3---------- -12-7-10-9-7--
    g:----------------------------- --------------
    d:------0-2-----------0-2------ --------------
    a:----------3-3-----------3-3-- --------------
    
    SF3 Oro & Sean M "The Longshoreman"
    e:-------------s10s17s22- -2-0--------------- -------------0-3-1-0---
    b:-5-5-3-5-5-3----------- -----3---1-3---1-3- ---1-3-3-1-3---------1-
    g:----------------------- -------2-----2----- -2---------------------
    
    2I Urien "Crazy Chili Dog"
    g:----------------8---- ------------ -------
    d:--8-8-8-8-8-8-8-8-8-- --8-6--4-6-- -------
    a:--8-8-8-8-8-8-8-6-8-- --8-6--4-6-- -------
    e:--6-6-6-6-6-6-6---6-- --6-4--2-4-- -------
    
    3S Makoto "Spunky"
    e:--------7-10-7----------- --8-8-6---------- --8~----8~----
    b:------8--------8--------- --------8----6-8- --------------
    g:--7-7------------7------- -----------7----- --------------
    d:--5-5--------------5s7s5- ----------------- ----0-1---1-0-
    
    Currently working on 3S Chun and Remy.
  • RichardRichard Joined: Posts: 592
    III:TS and IV
    El Fuerte
    e:------------------------- ----------13----------13----------15-13-12- -------
    b:-----5-----7-----8----10- -------11----------11----------13---------- -------
    g:---4-----6-----7-----9--- -10-12-------10-12-------12-14------------- -3-6-5-
    d:-5-----7-----8-----10---- ------------------------------------------- -------
    
    
    3S Chun-Li "China Vox"
    e:--0-3-5---0-3- -----5h7- -0-0-0---------
    b:--------3----- -5h8----- -------2-2-0-0-
    g:-------------- --------- ---------------
    
    3S Remy "The Beep"
    g:---------- -------------3-4- --16s-- ----1-
    d:--2x------ --2x-2x--2x------ ------- --2---
    a:--2x------ ----------------- ------- ------
    e:--0x------ ----------------- ------- ------
    
    Does anybody want Hugo, Ibuki or Necro?
2
Sign In or Register to comment.