SF or Other Guitar TABs?

13»

Comments

  • RichardRichard Joined: Posts: 592
    7 tunes from 4 Capcom games
    Rufus (it's a bit fast, so check the bit in the middle)
    e:----------- --------------------------9-8-6- --------- --------------------
    b:----------- --------------------5-6-7------- --------- --------------------
    g:--------3-- --------------4-5-6------------- --------- --------------------
    d:--5-5-3-3-- --------6-7-8------------------- -5-5-7-8- -5-3----------------
    a:--5-5-3-1-- -8-9-10------------------------- -5-5-7-8- -----5---3-1--------
    e:--3-3-1---- -------------------------------- -3-3-5-6- -------6-----1-2-3x-
    
    
    Ibuki "Twilight"
    e:---9-- -----12--------------------12-10-------
    b:--14-- --14----12-14-10-12--14-12-------14-12-
    
    Necro and Twelve "Snowland"
    e:--5-5-4-5-------0------3-3-2-3-2-0-2-2-
    b:------------1-3---3-1------------------
    g:----------2----------------------------
    
    3S Akuma/Gouki "Killing Moon"
    e:-----------14-12--------
    b:-----12-14-------12-14--
    g:--13--------------------
    
    Hugo "The Circuit"
    g:-----------b14r- -------------
    d:--8-8-9-8------- --6-6-7-9-7--
    a:--8-8-9-8------- --6-6-7-9-7--
    e:--6-6-7-6------- --4-4-5-7-5--
    
    Finally, from crossover games:
    
    Ghosts and Goblins Stage 1 (for Arthur) tabbed by Ali Zandi
    E|-16--15-14--13-10-11-10-11-10-11--------------------------
    B|----------------------------------------8~----------------
    G|--------------------------------78-78---------------------
    
    Megaman 2 opening titles tabbed by Tim Barr
    E--------------------------10--------|---------------------|
    B--13--13-13-13--13-13-13--------11--|-----------------11--|
    
    I can't be bothered with Elena or Gill or Q, as in some cases they are just 4 notes repeated, and I doubt anybody would play them on guitar anyway...
  • RichardRichard Joined: Posts: 592
    Other Capcom fighting games

    I gave in and transcribed because they were simple...
    SF3 Elena "Beats In My Head" (65 bpm)
    a:------5-5-2-2-1-1------
    e:--5-5------------------
    
    "Theme of Q"
    e:------9-8--8-9-6----
    b:--7-9------------7--
    
    
    SFIV Character Select
    e:---4---4-4------------3-4-3-1-0--4---4-4---8-6-10s6-
    b:-----6-----6--5-3-5-6--------------6-----6----------
    
    
    SF1 Birdie by Yoshihiro Sakaguchi
    (the bassline is about the only thing that's recognizable in Alpha)
    e:-----------2-3- ----------------------- -----11----13-11- -
    b:------2-------- ----------------------- -13~----13------- -
    g:--3-3---3------ -----------3-5-6-6-5-4- ----------------- -
    d:--------------- ----------------------- ----------------- -
    a:--------------- ---4-6-4-6------------- ----------------- -
    e:--------------- -6--------------------- ----------------- -
    
    Eagle
    e:--12---- -------0-------3-2-------0-------0----
    b:-----12- -0-2-3---0-2-3-----0-2-3---0-2-3---4--
    
    Darkstalkers Morrigan A by Takayuki Iwai (also used in Tatsunoko and Namco)
    e:----------3-----8---8-8-7-5-
    b:--------4---4-5---5---------
    g:----5-----------------------
    d:--3---3---------------------
    
    Rival Schools Batsu (Taiyo High) by Setsuo Yamamoto
    e:--------8-6-- ----------------------
    b:----5-6------ --9-8-6---6-8-6-8-10--
    g:--7---------- --------8-------------
    
    Forgotten Worlds by Tamayo Kawamoto
    e:--6-5-3--- --10-8-6---------------6~-(8h10)-
    b:-------6-- ---------6----8-6-8-10-----------
    g:---------- ------------7--------------------
    
  • CantoCanto Joined: Posts: 1,530
    Nice stuff Richard!

    Check out my Guiles them at www.myspace.com/yahguitar
  • SystemSystem Joined: Posts: 508,676 admin
    I've been looking for a solid Cammy tab. It's a shame the link in this thread doesn't work. Anyone know where to find a good one?
  • gutabogutabo Joined: Posts: 288
    I've been looking for a guitar tab of the solo of this song:


    It's Geese's Theme from KOF 96.

    Thanks in advance!
  • RichardRichard Joined: Posts: 592
    ^ sorry, I can't really get that enthusiastic about non-Capcom fighting games...
    SF Alpha Character Select just seems to be variations on:
    b:--0-2-3--------------
    g:---------4-2-0-------
    d:---------------0-2---
    
    I've been looking for a solid Cammy tab. It's a shame the link in this thread doesn't work. Anyone know where to find a good one?
    If by "solid" you mean perfect and full length, then I don't know. However, my Cammy from a few pages back is fairly accurate as far as it goes (which is just the main few bars). If you want a professional version, watch bboynoe's hands on Youtube. That sounds really good, and the camera is close up...
  • Saikyo JoeSaikyo Joe that awkward moment Joined: Posts: 2,458
    What about Dan's theme?

    And is it possible to transcribe MIDI songs using a certain type of software?
    Saikyo Joe does whatever the hell Saikyo Joe wants to do - Luc

    The answer to your question is no.
  • ShariShari Overestimated. Joined: Posts: 2,626
    http://www.songsterr.com/a/wa/song?id=18920

    I used this to learn the Vega stage theme from SF2.

    Click the instrument and select String Ensemble 1 for the main melody.
    Haunts: Is it lag or just impeccable footsies and spacing, I don't know.
    MiloDC: I beat YuuVega -- yes, that YuuVega -- the first time I played Claw seriously in my entire life.
  • MysticMystic Joined: Posts: 3,781
    Anyone know where I can find some SF related drum sticks? SF or tekken :D Preferrably light sticks since I use them for guitar hero, Fuck you I like guitar hero. Its the only drum set I got because I cant afford some and I dont have space T_T
    Angel's Number one fan.
    http://twitter.com/Bleetness
    <3333 Rose Magician
  • Atb_555Atb_555 www.neoempire.com Joined: Posts: 1,538
    Anyone know where I can find guitar tabs for some of K's soundtracks from KoF 99 to XI? They're all badass.
    Nose picking is one of life's greatest treasures...
  • RichardRichard Joined: Posts: 592
    What about Dan's theme?

    And is it possible to transcribe MIDI songs using a certain type of software?
    I think there is a Dan tab out there somewhere, but I couldn't find it just then.

    As for midis, a couple of the ones I posted here are from other people's midis (namely Ryu Piano End Sequence from SF2, Sodom's from Final Fight, and SFA1-Charlie). It's been a while, but I think the software was musicmasterworks.
  • Saikyo JoeSaikyo Joe that awkward moment Joined: Posts: 2,458
    I think there is a Dan tab out there somewhere, but I couldn't find it just then.

    As for midis, a couple of the ones I posted here are from other people's midis (namely Ryu Piano End Sequence from SF2, Sodom's from Final Fight, and SFA1-Charlie). It's been a while, but I think the software was musicmasterworks.


    Ah, with some fooling around Guitar Pro can convert MIDIs to tabs, I've found a lot of SF songs that converted pretty well.

    If you have it go to one of the tabs up top in the menu bar, it should be File. From there go to Import>MIDI.

    If allowed I can probably tab it out here, when I get a chance.
    Saikyo Joe does whatever the hell Saikyo Joe wants to do - Luc

    The answer to your question is no.
  • RichardRichard Joined: Posts: 592
    Small Airfield
    e:-----------5-5-5-4-4-4-2-2-2--5-5-5-3-3-2-2-2--3-3-3-----0--------0-0-0- -17-
    b:-----------------------------------------------------3-3----3-3-3------- ----
    g:--2-4-5-7--------------------------------------------------------------- ----
    d:--2-4-5-7--------------------------------------------------------------- ----
    a:--0-2-3-5--------------------------------------------------------------- ----
    
    Gouken
    e:-----------10--11--------10-8--
    b:--5-4-5--8--------11--12-------
    g:--5-4-5------------------------
    d:--5-4-5------------------------
    
  • mr u sukmr u suk Afro Warrior Joined: Posts: 205
    I dont tab out my own stuff, but basically all i play anymore is video game music. Mostly Guilty Gear/Blazblue and Megaman2

    i know its like 5 years too late but those looking for the guilty gear tabs can find them here

    http://www.ultimate-guitar.com/tabs/daisuke_ishiwatari_tabs.htm

    but ya better have Guitar Pro! (its better that you get it anyway)
    AE: Makoto...i guess, God im free at this game :(
    Third Strike: Q!
    Shadow Glare: "THIS BITCH IS CRRAAAAAZZZZY"
  • nothingxsnothingxs EVO Head TO Joined: Posts: 1,688
    If someone can give me tabs to the following songs, I will paypal you real fucking money. I'm not kidding.

    Right now the reward for each song is $10. I'm concerned with any part that is guitar, you can ask me what parts those are if you'd like.

    (I don't give a FUCK about the lead but if you want to tab that too then whatever)



    PM me once you post, first come first serve. If more than one person tabs it out it's whoever did it first SHIT.
  • SNK GuitaristSNK Guitarist Super Turbo Fanatic Joined: Posts: 427
    I'll work on those two songs. It shouldn't be long.

    I recorded a theme from Bad Dudes a couple days ago that's pretty fun to play -
    CvS2: N/P Groove - Kim, Ryu, Geese, Kyo, Iori, Terry, Guile, Haohmaru
    Super Turbo: Guile, Ryu
    Fatal Fury Special: Kim, Geese, Duck King, Tung Fu Rue, Terry
  • nothingxsnothingxs EVO Head TO Joined: Posts: 1,688
    I'll work on those two songs. It shouldn't be long.

    I recorded a theme from Bad Dudes a couple days ago that's pretty fun to play -

    Reward's yours (since I already spoke with you and all).
  • RichardRichard Joined: Posts: 592
    I found this old bit of incomplete tab I was working on...
    SFA Dan H
    e:--5~-2~-0-------8-12------8--- ------------10h11p10--
    b:-----------8-10------8-10----- -----8s7s8------------
    g:----------------------------9- -6-9------------------
    
    I've pretty much finished all the Super SF4 stuff, and will post in the next couple of days.
  • RichardRichard Joined: Posts: 592
    Hmm, I was thinking Cody had a brand new theme for SSFIV, but after listening again, it's a heavy remix of a tune most of us know.
    Cody T (has elements from the cinematic Jessica intro sequence from Final Fight)
    d:--------- -7-5-3-2-0----------0--------------------------7- ---------0---2---0- -------2-0-2-0-------
    a:-0-2-3-2- -----------2-3--2-3---3-2-3-2-0------0---2-0----- -0-2p0h3---3---3--- -0-2-3---------2---0-
    e:--------- ---------------------------------3-1---3-----3--- ------------------- -----------------3---
    The FF original is down a semitone, and starts with a different opening of G# and E chords on arcade (up 8 semitones on Nintendo and Mega CD, with F C# chords for intro)
    
    The rest will follow.
  • RichardRichard Joined: Posts: 592
    Here we go.
    N. American Skyscraper under construction
    d:-7--7-7--3--5---7-- -5-7-8--3-5--- --10-10-10-8-7--10-10-10-8-10-11-10-8-
    a:-5--5-5------------ ------------5- --------------------------------------
    e:------------------- -------------- --------------------------------------
    
    S. Asia Exciting Street Scene (India)
    e:---- ------14-13--13----10-9- -14-14-13-------------- -16-----16-17-16-14-16-
    b:-2~- -9-12-----------12------ ----------14--16-14-12- ----14-----------------
    g:---- ------------------------ ----------------------- -----------------------
    
    E. Asia Festival at the Old Temple (Korea)
    e:----------------3---------------------5-3-2- -3-3-2-2-0- -8-5---8p5-------
    b:--8----555--3-5------555-0-1------555------- ----------- -----5-----7-?---
    g:----(2)-----------(2)--------2-(2)---------- ----------- ---------------7-
    
    African Solar Eclipse
    a:----------------6-- --7-- ---6---8---10----12- ---7-
    e:--6-4x--6-4-6h7---- ----- -4---6---8----10---- -7-0-
    
    Juri H ??
    b:-------------------- --------------9---12-11- --------------14-13-11-14- -----
    g:------7------------- -8-11-8-11-8----7------- -10-11-10-8-6------------- ---4-
    d:--7-7-5-----4-7-8--- ------------------------ -------------------------- -4-7-
    a:--5-5-----5-------9- ------------------------ -------------------------- -----
    
    Hakan
    e:------- ------------------4------- ---------------------------------- -8-9-11-13-
    b:------- -4-6-7-6-4--4-6-7---7-4-6- ---------------------11--9-8------ -----------
    g:-3-4-4- -------------------------- -3s10--8-10-11-8-11----------11-8- -----------
    
  • Blank SabbathBlank Sabbath Dokka! Joined: Posts: 72
    No offense Richard, but most of these tabs suck. There are many mistakes, and it's not suited well for guitar (like you have to jump on the fretboard like crazy, and many open strings), and.. well.. they're all incomplete.

    Of course you gotta practice tabbing to become good at it, but you should still wait and post these tabs because you might just end up misteaching alot of people.
    aka "wzbz" on GGPO.
  • RichardRichard Joined: Posts: 592
    I take some of your points. However:
    • Nearly all my SF tabs are incomplete. But when you think about it, most SF music boils down to a simple 10 note melody, so this doesn't matter too much. That's the main, recognizable, fun part. Also, I try to keep every tune to one set of lines, and to 80 characters wide, so they can be printed on a variety of print/monitor/software settings.
    • Inaccuracies - not that I'd noticed. But if you spot any, feel free to say (and maybe even provide a better version in the spirit of collaboration- that's part of the reason I do it- to start the ball rolling, and give people the idea in the first place. This is a discussion board, and I see it as a place to get feedback on drafts before publishing in an archive).
    • Suitability- well, sure. With the exception of SFEX, nearly everything Capcom ever did was synthesized. But in any case, not many people here play the flute or harpsichord, so of course it's gonna have to be converted to work on a guitar. And I put them on open strings where possible, with minimal stretching, etc. In any case, lots of songs in the key of G, for example, are played with nothing above the 3rd fret for the verses and chorus, and yet when you get to the solo, it's all up on 15 and 17th- it can't be helped.
    • Plus, in some cases, it's obvious that two parts of the same tab are on 2 or 3 vastly different instruments (eg Yun), and in that case, you wouldn't want to play the whole thing by yourself anyway. And finally, if you're in a band and going to play a full song live, you'll be good enough to transpose to other strings as needed (and to work out the remaining notes, since you'll know the key).
  • RichardRichard Joined: Posts: 592
    There's obviously been renewed interest in TS of late, so here are some expanded versions of my stuff from last year:
    Dudley "You Blow My Mind"
    b:--5s3---------5-5s3---------- -12----10-9---- -12-12-12-10-10-10-
    g:----------------------------- ----11------11- -11-11-11--9--9--9-
    d:------0-2-----------0-2------ --------------- -------------------
    a:----------3-3-----------3-3-- --------------- -------------------
    
    Ibuki "Twilight"
    e:---9-- -----12--------------------12-10------- ---9----
    b:--14-- --14----12-14-10-12--14-12-------14-12- -----11-
    g:------ --------------------------------------- -8------
    
    Elena "Beats In My Head" (obviously this is vocal-lead)
    a:------5-5-2-2-1-1--- ---6-8---7-8-
    e:--5-5--------------- -8-----8-----
    
    Akuma "Killing Moon" (obviously this is drum-lead)
    e:-----------14-12------- -14-14-12-12-14-14-
    b:-----12-14-------12-14- -14-14-------------
    g:--13------------------- -------------------
    
    Urien "Crazy Chili Dog"
    g:----------------8----- ---------------6-8- ---6-8- --------
    d:--8-8-8-8-8-8-8-8---8- -8-6--4-6--8-6-6-8- -8----- --------
    a:--8-8-8-8-8-8-8-6-4-8- -8-6--4-6--8-6-4-6- ------- --------
    e:--6-6-6-6-6-6-6-----6- -6-4--2-4--6-4----- ------- -8~-7~--
    
  • RichardRichard Joined: Posts: 592
    Couple of extensions to replace previous:
    SFIV Old Temple, Japan
    e:------------10--12-10-------10----- -10~-11----10-11--8-
    b:------6-7-9-----------10-13----10-- --------9~----------
    g:--6-8------------------------------ --------------------
    
    Crowded Downtown, China
    e:------------- -8-8h10p8----8-11-8- -----x-x- -----------------8-8-11h13p11p8-
    b:---4---6-4--- ----------10-------- -x-x----- -------9-9-11-11----------------
    g:-5---5-----4- -------------------- --------- -10-10--------------------------
    
    Mediterranean Cruise Ship Stern
    E:------------------ -4-4-4-5-5-5---4------2- -3-4-1-3--- ----------11-13-
    b:------------------ -------------4---?--2--- ---------1- ----11-13-------
    g:--4-5-5-555--1-3-- ------------------------ ----------- -12-------------
    d:------------------ ------------------------ ----------- ----------------
    
    Drive-in at Night, USA
    d:-------4------6--- -7-5-4-----4-7-5-4- -4-5-5-7-4-4-5-5-7-9--9-7-5-7-5-4-4---
    a:------------------ -------7-5-4------- ------------------------------------7-
    e:-0-0-2-2--0-0-4-2- -----------2------- --------------------------------------
    
    Historic Distillery, Scotland
    d:-7-7- ----------3---- --7-9-11-7-- -6-3-5-6- ---7- -8-7-8-8-7-8-
    a:-5-5- -6-4-6--6---4-- ------------ --------- -7--- -------------
    
    Overpass, Tokyo
    e:-------------- ----------------- ---11-10-7---9----8----
    b:-------------- -8-9-8---------8- -8---------8---11---11-
    g:--5x-5x-5x-8x- -------10-8-10--- -----------------------
    d:--5x-5x-5x-8x- ----------------- -----------------------
    
    Gouken
    e:--------- -15------- ----10--11--------10p8-----13-15-11-13h15h13-
    b:--5-4-5-- ----16-13- --8--------11--12-------11-------------------
    g:--5-4-5-- ---------- ---------------------------------------------
    d:--5-4-5-- ---------- ---------------------------------------------
    
    PS: has everybody heard about the phenomenon of ?
  • RichardRichard Joined: Posts: 592
    Looking back, all the attachments seem to have gone. Correct me if I'm wrong, but there doesn't seem to be any way to get a couple of the old SFII tabs from p1 any more. Hence Drag's contributions (with minor embellishments from me):
    Guile revisited
    E:-----------------------------------------1-1------- ------------3-3---6-4-3-4-
    b:-4--4-3--3-4--3--4--4-3--3-4--3--4-3-4-3-----4-3--- ------3-4-6-----6---------
    g:-------------------------------------------------3- -5--5---------------------
    d:--------------------------------------------------- --------------------------
    
    Ken revisited (ST version starts with C# instead of F; HDRemix starts with an A)
    ----------- --------------------------------------------------------------------
    ----------- --------------------------------------------------------------------
    -2-0------- ------3-1--0----------------3-1--0--------------3-5-6-5-3---3-5-3---
    -3-1-3-0-2- ---3---------3--1--3-----3---------3--1--3----3-----------6-------6-
    -3-1-4-1-3- -3---------------------3--------------------3-----------------------
    -1---4-1-3- --------------------------------------------------------------------
    
  • RichardRichard Joined: Posts: 592
    Hmm, now has over 1000 videos!

    Anyway, here are a few more 3S improvements:
    Necro and Twelve "Snowland"
    e:--5-5-4-5-------0------3-3-2-3-2-0-2-2- -8--6-8-6- -6-8-6-----
    b:------------1-3---3-1------------------ ---------- -------8---
    g:----------2---------------------------- ---------- ---------8-
    
    Hugo "The Circuit"
    g:-----------b14r- ------------- -16--18-17-18- -0-3-2-4-2-3-
    d:--8-8-9-8------- --6-6-7-9-7-- -------------- -------------
    a:--8-8-9-8------- --6-6-7-9-7-- -------------- -------------
    e:--6-6-7-6------- --4-4-5-7-5-- -------------- -------------
    
    "Theme of Q"
    e:------9-8--8-9-6---- ---------13-15-- -17-15-17-
    b:--7-9------------7-- -5-10-11-------- ----------
    
    And finally, SF4 Inland/Pitch Black Jungle
    E:-------8x-- ------------5-3-2-0-----------------etc-7-6- -------------3-
    b:----------- ------3---3---------3----------------------- -----3-4-3-----
    g:----------- ----3---5-------------5-3-5------3---------- ---3-------5---
    d:--5x-5x---- --5-------------------------5--5------------ -5-----------5-
    a:--5x-5x---- -------------------------------------------- ---------------
    e:--3x-3x---- -------------------------------------------- ---------------
    
  • RichardRichard Joined: Posts: 592
    I've been in a retro mood lately, so did 3 songs from the original FF (they were also remixed for Streetwise). I also finally decided to go back and pick one of the two versions of the classic Ryu stage from before, and lengthen it.
    Final Fight "West Side" (stage 3 2, Andore Wrestling Ring)
    e:-2- -6p5p3------- -------13-12--10--------------13-12-13-18-17- -10-13-12-11-
    b:-3- -------9p8p6- --------------------10----------------------- -------------
    g:-2- ------------- -10-12-----------12-----10-12---------------- -------------
    
    Final Fight "Industrial Area" (stage 4 1)
    g:-7-5-4---------- -four-times-- -twice--------- ---0-2-0----0---0-----
    d:------7-5-4-2--- -0----------- --------------- -2-------1----3---0---
    a:---------------- ---4-2-1-0--- -0---0-2-0---0- ----------------------
    e:--------------3- -----------3- ---3-------3--- --------------------3-
    
    Final Fight "Going Up" (stage 4 2, battle against Rolento)
    e:-4---6---4------- -4-6-4---4-6------3-4-6-4-3----------- -1-----
    g:---6---6---6-4-6- -------6-----6--6-----------6-4---4-6- -1-1-3-
    g:----------------- --------------------------------5----- ---0-2-
    
    Ryu v1 enhanced (put a capo on 4th fret for HDR version)
    e:----------------------- -------------------------------------------------------
    b:----------------------- -------------------------------------------------------
    g:----------------------- --------------0-------------0------3--2-0-------------2
    d:---------------3------- ------0-0-2-3---3p2h3-0-2-3---0---/-------3-2-0-0--2-3-
    a:-5-3-3-5-3-3-5---5-3-0- -(0-3)--------------------------3----------------------
    e:----------------------- -------------------------------------------------------
    
  • RichardRichard Joined: Posts: 592
    Had some spare time this week, so worked on getting some more oldies up to scratch:
    WW Honda (Super version starts on B then A)
    E:---------- --------------------------------------------------
    b:---------- --------------------------------------------------
    g:---------- ----0------0-2-2-0--------------------------------
    d:---------- --2---2--2---------2-0-2--0--------0-2h0----------
    a:--0----0-- ----------------------------2-0--3-------3-0----0-
    e:-----3---- ----------------------------------------------3---
    
    Chun (Super starts on a B)
    E:-----------1----------5-3- ---0--------------------------------0-1-3-0-0---0-(0)-
    B:-3-3-1-1-3---3-3-1-1-3---- -3---3-1----1-------1-3-3p1h3-3p1h3-----------3-------
    G:-------------------------- -2---2--0-2---0-2-2-----------------------------------
    D:-------------------------- -0---0----2-----2-------------------------------------
    A:-------------------------- ------------------------------------------------------
    
    Zangief revisited (Super is up 2 frets, giving a nice open E bassline)
    b:----------- ---------------------------------------------- -10-10-11-8-10--15-
    g:----------- ----5----------------------------------------- -------------------
    d:--0-2-3-5-- --7---7-5-7-5--------------------------------- -------------------
    a:----------- ---------------7-0-3-0-?-0---0-1---1-1-3------ -------------------
    e:----------- -----------------------3---3-----3--------0-3- -------------------
    
    Blanka (Super up a semitone)
    E:--------------------- --------- ---------------3- -1----- -7-7- -14-12-10-7-
    b:--------------------- --------- -------1-3-1-3--- -3-1-1- ----- ------------
    g:--------------------- --------- -0-0-0----------- ------- ----- ------------
    d:----1------------1--- -----1-3- ----------------- ------- ----- ------------
    a:--3---3--3-3-3-3---3- -3-3----- ----------------- ------- ----- ------------
    e:--------------------- --------- ----------------- ------- ----- ------------
    
    As you can see, some tumes move up or down on CPS2 compared to the CPS1 version, and many later games are in the same key as the CPS2 versions. Except for HD Remix, which are all over the place.
  • Blank SabbathBlank Sabbath Dokka! Joined: Posts: 72
    Some mistakes (check out the bolded):
    WW Honda (Super version starts on B then A)
    E:---------- ----------------------------------------------------
    b:---------- ----------------------------------------------------
    g:---------- ----0------0-2-2-0----------------------------------
    d:---------- --2---2--2---------2-0-2--0--------0-2h0------------
    a:--0----0-- ----------------------------[B]3[/B]-0--3-------3-0------0-
    e:-----3---- ----------------------------------------------3-[B]0[/B]---
    
    Though this whole version is pretty much unplayable with all the open strings. You don't want to have a bunch of open strings when playing a lead melody like this, since then you can't add vibrato and you'll just lack control in general.
    Chun (Super starts on a B)
    E:-----------1----------5-3- ---0--------------------------------0-1-3-0-0---0-(0)-
    B:-3-3-1-1-3---3-3-1-1-3---- -3---3-1----1-------1-3-3p1h3-3p1h3-----------3-------
    G:-------------------------- -2---2--0-2---0-2-2-----------------------------------
    D:-------------------------- -0---0----2-----2-------------------------------------
    A:-------------------------- ------------------------------------------------------
    
    The whole second part of this one makes no sense at all. The whole melody and key seems to be wrong. Besides, it's all the way down there on the fretboard, making it very unpractical to play anyway. :xeye:
    Zangief revisited (Super is up 2 frets, giving a nice open E bassline)
    b:----------- ---------------------------------------------- -10-10-11-8-10--15-
    g:----------- ----5----------------------------------------- -------------------
    d:--0-2-3-5-- --7---7-5-7-5--------------------------------- -------------------
    a:----------- ---------------7-0-3-0-?-0---0-1---1-1-3------ -------------------
    e:----------- -----------------------3---3-----3--------0-3- -------------------
    
    Again I don't really understand what is going on after the first part. Plus again, lots of open strings, weird jumps, unplayable.
    Blanka (Super up a semitone)
    E:--------------------- --------- ---------------3- -1----- -7-7- -14-12-10-7-
    b:--------------------- --------- -------1-3-1-3--- -3-1-1- ----- ------------
    g:--------------------- --------- -0-0-0----------- ------- ----- ------------
    d:----1------------1--- -----1-3- ----------------- ------- ----- ------------
    a:--3---3--3-3-3-3---3- -3-3----- ----------------- ------- ----- ------------
    e:--------------------- --------- ----------------- ------- ----- ------------
    
    Nothing at all seems to be right here. Have you tried entering your tabs in GuitarPro or TabIt or something and listened to the result? I really recommend that, so you can hear immediately if something is off while entering the tab.
    aka "wzbz" on GGPO.
  • RichardRichard Joined: Posts: 592
    So here are a few more expanded ones.
    SFEX update: "Stronger" Garuda
    E:--1--4--1--4--2-2--1--2-4-1--2-4-1--4-2-1-6-- -7-5-4-5-4--10-12-10-9- -17-
    b:--1--4--1--4--2-2---------------------------- ----------------------- ----
    g:--2--5--2--5--3-3-------------------then----- ----------------------- ----
    d:--3--6--3--6--4-4------------------repeat---- ----------------------- ----
    a:--3--6--3--6--4-4--------------------up------ ----------------------- ----
    e:--1--4--1--4--2-2------------------three----- ----------------------- ----
    
    "Iron Eyes" Area
    E:------- -------------- -6--5--5-3-1-3-3--6-10-8-6--5-3-1-3--11-10-6-8-8-
    b:------- -------------- -------------------------------------------------
    g:--5-7-- ------------1- -------------------------------------------------
    d:--5-7-- -4-5-4-0-2---- -------------------------------------------------
    a:--3-5-- -------------- -------------------------------------------------
    e:------- -------------- -------------------------------------------------
    
    "Biri-Bari Red Heat" Blanka
    E:------------ ----------------------------- ------8~-- -4-3-1--0-3-1-
    b:------------ ----------------------------- -6-6------ --------------
    g:------------ -5--0-2-3-5-3-2-3-2---------- ---------- --------------
    d:--------1--- --------------------5-3-5-2-- ---------- --------------
    a:----1-3---3- ----------------------------- ---------- --------------
    e:--1--------- ----------------------------- ---------- --------------
    
    "Before Moon" Sagat
    E:------------------------- ---------------7--------5----10-7--10--- -12-10-8-
    b:------------------------- -----------------8--5-8---7-----------7- ---------
    g:------------------------- ----------0-9--------------------------- ---------
    d:------------------------- -------2-------------------------------- ---------
    a:-------1-2--------------- -1-------------------------------------- ---------
    e:-3-0-3-----3-3-0-3-3-0-1- ---3------------------------------------ ---------
    
    "The Battle Of The Flame" Shadow Geist
    E:-7-7-8-8-7-7-8-8--14-14-14-14- ------------------------ ------?-15-14-14-12-14-
    b:------------------10-10-10-10- ------------------------ -12-13-----------------
    g:------------------------------ ------------------------ -----------------------
    d:------------------------------ ------------------------ -----------------------
    a:------------------------------ ---------7-6------------ -----------------------
    e:------------------------------ -7-7p6-7-----7--5-5s6s5- -----------------------
    
    "Matador" Vega
    E:--------------------------------- ---------5-------- -------6-5- -15-12----
    b:--------------------------------- -8-7p5p3---8-?-10- ----------- -------15-
    g:----------------------0-0-0-3-2-- ------------------ -5-5-5----- ----------
    d:------7--7--5-7--9-7------------- ------------------ ----------- ----------
    a:--------------------------------- ------------------ ----------- ----------
    e:--2-3-5-------------------------- ------------------ ----------- ----------
    
    The reply:
    Honda - Some mistakes (check out the bolded):
    Ok, yep, thanks very much. Two notes corrected. Not bad though, for a whole line of tab. Seems like a lot of other people agree with me as well, mine have formed the basis of at least 5-10 other (very thorough) tabs from other people (Cammy, etc)
    Though this whole version is pretty much unplayable with all the open strings. You don't want to have a bunch of open strings when playing a lead melody like this, since then you can't add vibrato and you'll just lack control in general.
    Personal preference I guess. Some people (and especially guitar beginners) just find it easier to play on open and low-numbered frets. Less counting, less chance of rattle, etc. And again, if you're looking to slide and bend, you're probably good enough to shift it to another string yourself.
    Chun - The whole second part of this one makes no sense at all. The whole melody and key seems to be wrong
    As I said above, and before, the key can change between games (even between consecutive games in the same year like SF2 Hyper Fighting and New Challengers). Sometimes it's one fret down, sometimes it's 8 full keys up. Super SF2, which is obviously not the original game, now seems to have become accepted as the standard, so when the tunes are used in Alpha or a Vs game like Namco or Tatsunoko, they sometimes (but not always) adopt the changed key from Super SF2. Then ST HD R comes along and stuffs it all!
    Blanka - Nothing at all seems to be right here. Have you tried entering your tabs in GuitarPro or TabIt or something and listened to the result?
    I generally don't bother with software, except for a few times a long time ago when I was creating a small number of midis. I have tried my tabs on both guitar and piano though (sometimes even a year or two later, and they still made sense to me).

    Just to keep them categorised by game, see guitarmasta.net
  • NOTORIOUS PAINNOTORIOUS PAIN Joined: Posts: 54
    I can play the FF7 theme song on piano as unrelated as that is
  • RichardRichard Joined: Posts: 592
    ^ good stuff.

    Anyway, here are 2 songs which are unpopular and/or not heard as often:
    SF3:NG Gill "The Judgment Day"
    e:-------------8-7-8-7-11-10-11-10-14-13-14-13- ---5-7-8-7-5---5-6--- -12-10----
    b:-11-10-11-10--------------------------------- -9-----------7-----6- -------10-
    g:--------------------------------------------- --------------------- ----------
    
    3S Ryu "Kobu"
    E:------------------------------ ----2-1-1-0------0-1-1-0-
    b:----------5-5-3--------3-3-1-- -------------3-3---------
    g:------------------------------ --2----------------------
    d:--5s6s5----------4s5s4-------- --2----------------------
    a:------------------------------ --0----------------------
    
    Comments welcome as always. This is just about it for SFIII (I probably won't bother with character select, blocking, or the game over jingle).
  • RichardRichard Joined: Posts: 592
    Bump to prevent deletion
  • RichardRichard Joined: Posts: 592
    Hmm, I've not played SFxT, but it would appear listening to Youtube that Cody's theme (tab on previous page) makes it in during round 3 of the Mad Gear Hideout stage, which is full circle considering it originally came from FF's intro. And Rolento's theme from Alpha 2 is in Mad Gear round 1, with the Metro City Subway theme being round 2...
  • SorwahSorwah Joined: Posts: 890
    Great thread, just wish I could see the attachments to the posts :(.
  • RichardRichard Joined: Posts: 592
    An now for something a bit more recent.
    USFIV Poison
    E:---6------- -6~--------------------------6--------- -11-9-----------
    b:-----9-6-9- ----9-8-6-----6--------6-------9p6----- ----------------
    g:----------- ----------6-8------6-8---8-6-------8-6- ------6-7-8-8-6-
    d:-8--------- -----------------8--------------------- ----------------
    a:-8--------- --------------------------------------- ----------------
    e:-6--------- --------------------------------------- ----------------
    
    USFIV Decapre
    E:----- -----8-6-----------------8-6----- ---------------------------------
    b:----- ---6-----8-9-6-8-------6-----8-9- ---------------------------------
    g:----- -5---------------8---5----------- ------------------3------6-5-3---
    d:-3--- --------------------------------- -3~----5-6-3~-5-6---5-6--------6-
    a:----- --------------------------------- -1-4-1---------------------------
    e:---1- --------------------------------- ---------------------------------
    

    Would anybody be interested in the Blast Furnace or Cosmic Elevator stages?
  • JohnsoN_BCJJohnsoN_BCJ some guy Joined: Posts: 5
    lulz...these are pretty good, I like most of them. Thanks.
    What in the world happened to my old SRK account?!?! ...oh well...
    XB GT = JohnsoN_BCJ
  • RichardRichard Joined: Posts: 592
    Rashid (Hideyuki Fukasawa) 
    E:------------------------------------- -------------- -Rashido---------------
    B:------------------------------------- -------------- -----------------------
    G:------------------------------------- ---1----1-4-1- -5-8--10--5------------
    D:------------------------------------- -3---3-------- -5-8--10----6-8-5-6-3--
    A:------------------------------------- -------------- -3-6--8----------------
    E:--1-1-1-1-4-3-1--1-1-1-1-4-3-1h3h4h6- -------------- -----------------------
    
    Necalli (Keiki Kobayashi)
    E:------------- ---------------- -------------- ------------- ---------------
    B:------------- ---------------- -------------- -----2------- ---------------
    G:----------1-- --1-1-1-2-1---1- --1-1-4-1---1- -1-1---1----- ---------4-1---
    D:----1-2-4---- ------------4--- ----------4--- ---------4-2- ---1-2-4-------
    A:--4---------- ---------------- -------------- ------------- -4-----------4-
    E:------------- ---------------- -------------- ------------- ---------------
    
13»
Sign In or Register to comment.